+
1 2 12
1 10 15

: !

  1. #1
    proDK       proDK
    15.05.2007
    15
    ()
    0
    : 0 (: 0).

     !

    -
    --





    :















    .



    -
    --
    -

    . 2
    ! !
    - , .

  2. #2
    Copper       Copper
    16.01.2008
    1
    ()
    0
    : 0 (: 0).


  3. #3
    V.I.P. Logovaz    Logovaz      Logovaz
    11.12.2006
    3,625
    ()
    5
    : 0 (: 0).

    .
    .
    ... mp3 ? =))
    ?

    .

  4. #4
    PROflooder at work Ari       Ari
    21.09.2007
    267
    ()
    0
    : 0 (: 0).

    Logovaz,
    .

    - () Zoner

  5. #5
    , 2RaN     2RaN       2RaN
    25.06.2007
    , ,
    389
    ()
    0
    : 0 (: 0).

    Intro ( Solo1)
    Em Am
    1---|-----------------------------------------------------------------------
    -
    2---|-----------------------------------------------------------------------
    -
    3---|*----------------------------------------------------------------------
    -
    4---|*-------------------------------2------2------2------2------1------1---
    -
    5---|-2-2---------2-2--2---------2---0--0-0-0--0-0-0--0-0-0--0-0-0--0-0-0---
    -
    6-/x|-0-0-2^3-2^3-0-0--0-2^3-2^3-0------------------------------------------
    -

    Em Am F# G
    1----------------------------------------------------------------------2--3-
    |
    2----------------------------------------------------------------------2--3-
    |
    3----------------------------------------------------------------------3--4*
    |
    4-----1------1----------------------------------2-2---------2-2--2-----4--5*
    |
    5-0-0-0--0-0-0---2-2---------2-2--2---------2---0-0-2^3-2^3-0-0--0-2-3-4--5-
    |
    6----------------0-0-2^3-2^3-0-0--0-2^3-2^3-0--------------------------2--3-
    |

    Em F# G
    1-------------------------------------------2--3----------------------------

    2-------------------------------------------2--3----------------------------

    3-------------------------------------------3--4----------------------------

    4-------------------------------------------4--5----------------------------

    5-2------2------2------2------2------2------4--5----------------------------

    6-0--0-0-0--0-0-0--0-0-0--0-0-0--0-0-0--0-0-2--3----------------------------



    1. Solo2
    Em
    - ,
    G
    - ,
    D Em
    .
    Em
    ,
    G
    ,
    D
    .


    .( Solo3):

    Solo1
    Em Am
    1-----0-------0-------0-------0---------5-------5---------5-------5---------
    -
    2-0-0---0-0-0---0-0-0---0-0-0---0-0-5-5---5-5-5---5-5-4-4---4-4-4-----------
    --
    3---------------------------------------------------------------------------

    4---------------------------------------------------------------------------

    5---------------------------------------------------------------------------

    6---------------------------------------------------------------------------


    Solo2
    Em G
    1---------------------------------------------------------------------------

    2---------------------------------------------------------------------------

    3---------------------------------------------------------------------------

    4-2-2-2-2-2--0--2--0--2---2-2-2-2-2--0--2--0--2--4--5-5-5-5-5---4--5--4--5--

    5---------------------------------------------------------------------------

    6---------------------------------------------------------------------------


    D
    1---------------------------------------------------------------------------

    2---------------------------------------------------------------------------

    3---------------------------------------------------------------------------

    4-5-5-5-5-5--4--5--4--5--4--------------------------------------------------

    5---------------------------5-5-5-5-5--4--5--4--5--5-5-5-5-5--4--5--4--5--4-

    6---------------------------------------------------------------------------


    Em
    1---------------------------------------------------------------------------

    2---------------------------------------------------------------------------

    3---------------------------------------------------------------------------

    4-2-2-2-2-2--0--2--0--2--4--5-5-5-5-5--4--5--4--5--4------------------------

    5---------------------------------------------------------------------------

    6---------------------------------------------------------------------------


    Solo3 ( 3 )
    Am C D Em
    1-------0--------0-------2--------------------------------------------------
    -|
    2-------1--------1-------3--------------------------------------------------
    -|
    3*----2--------0-------2----------------------------------------------------
    *|
    4*--2----------------0-------2-2-2-2-2--0--2--0--2--4--5-5-5-5-5--4--5--4--5
    *|
    5-0---------3---------------------------------------------------------------
    -|
    6---------------------------------------------------------------------------
    -|

    Am D Em
    1-------0---0-0-0-0-2--5----------------------------------------------------

    2-------1---1-1-1-1-3--7----------------------------------------------------

    3-----2-----2-2-2-2-2-------------------------------------------------------

    4---2-------2-2-2-2-0-------------------------------------------------------

    5-0---------0-0-0-0---------------------------------------------------------

    6-----------------------------/X--------------------------------------------
    ? ?) ? - http://vkontakte.ru/a.pozhidaev

  6. #6
    ZLoy_kif   ZLoy_kif   ZLoy_kif   ZLoy_kif     ZLoy_kif
    29.12.2006
    221
    ()
    0
    : 0 (: 0).

    !
    ?

    2RaN
    ,
    The road to hell is paved with good intentions
    Warcraft III ZLoy-kif

  7. #7
    Erin Welton... Mhaith       Mhaith
    12.11.2007
    48
    ()
    0
    : 0 (: 0).

    gp rulezz 4ever ))

    ))

    So come on - Break it off
    Come on - Buy the lie
    Come on - Say it, say it
    Come on
    Say goodbye!
    Goodbye!

    Oh I didn't need to leave to stay right here
    Today I said goodbye! - Goodbye!
    Slipknot- Three Nil

    ...
    A wise man once said
    That which does not kill us makes us stronger
    But we were dead
    So are we now invincible?
    Chimaira - Resurrection


    This is my fate - the things I hate (Lodger - Fickle)

  8. #8
    , 2RaN     2RaN       2RaN
    25.06.2007
    , ,
    389
    ()
    0
    : 0 (: 0).

    Mhaith
    gp rulezz 4ever ))
    gp

    30

    ? ?) ? - http://vkontakte.ru/a.pozhidaev

  9. #9
    ZVERb       ZVERb
    26.08.2007
    478
    ()
    0
    : 0 (: 0).

    ! !

  10. #10
    Erin Welton... Mhaith       Mhaith
    12.11.2007
    48
    ()
    0
    : 0 (: 0).

    2RaN
    gp

    This is my fate - the things I hate (Lodger - Fickle)